0
SECTION
2
HEADER
9
$INSUNITS
70
4
9
$ACADVER
1
AC1014
9
$HANDSEED
5
FFFF
0
ENDSEC
0
SECTION
2
TABLES
0
TABLE
2
VPORT
5
8
100
AcDbSymbolTable
0
ENDTAB
0
TABLE
2
LTYPE
5
5
100
AcDbSymbolTable
0
LTYPE
5
14
100
AcDbSymbolTableRecord
100
AcDbLinetypeTableRecord
2
BYBLOCK
70
0
0
LTYPE
5
15
100
AcDbSymbolTableRecord
100
AcDbLinetypeTableRecord
2
BYLAYER
70
0
0
ENDTAB
0
TABLE
2
LAYER
5
2
100
AcDbSymbolTable
70
2
0
LAYER
5
50
100
AcDbSymbolTableRecord
100
AcDbLayerTableRecord
2
0
70
0
6
CONTINUOUS
0
ENDTAB
0
TABLE
2
STYLE
5
3
100
AcDbSymbolTable
70
1
0
STYLE
5
11
100
AcDbSymbolTableRecord
100
AcDbTextStyleTableRecord
2
STANDARD
70
0
0
ENDTAB
0
TABLE
2
VIEW
5
6
100
AcDbSymbolTable
70
0
0
ENDTAB
0
TABLE
2
UCS
5
7
100
AcDbSymbolTable
70
0
0
ENDTAB
0
TABLE
2
APPID
5
9
100
AcDbSymbolTable
70
2
0
APPID
5
12
100
AcDbSymbolTableRecord
100
AcDbRegAppTableRecord
2
ACAD
70
0
0
ENDTAB
0
TABLE
2
DIMSTYLE
5
A
100
AcDbSymbolTable
70
1
0
ENDTAB
0
TABLE
2
BLOCK_RECORD
5
1
100
AcDbSymbolTable
70
1
0
BLOCK_RECORD
5
1F
100
AcDbSymbolTableRecord
100
AcDbBlockTableRecord
2
*MODEL_SPACE
0
BLOCK_RECORD
5
1B
100
AcDbSymbolTableRecord
100
AcDbBlockTableRecord
2
*PAPER_SPACE
0
ENDTAB
0
ENDSEC
0
SECTION
2
BLOCKS
0
BLOCK
5
20
100
AcDbEntity
100
AcDbBlockBegin
2
*MODEL_SPACE
0
ENDBLK
5
21
100
AcDbEntity
100
AcDbBlockEnd
0
BLOCK
5
1C
100
AcDbEntity
100
AcDbBlockBegin
2
*PAPER_SPACE
0
ENDBLK
5
1D
100
AcDbEntity
100
AcDbBlockEnd
0
ENDSEC
0
SECTION
2
ENTITIES
0
LWPOLYLINE
5
100
100
AcDbEntity
8
0
100
AcDbPolyline
90
4
70
1
43
0.0
10
80
20
0
10
0
20
0
10
0
20
-253
10
80
20
-253
0
LINE
5
101
100
AcDbEntity
8
0
100
AcDbLine
10
-4.9303806576313238e-31
20
-253
30
0
11
0
21
-260
31
0
0
LINE
5
102
100
AcDbEntity
8
0
100
AcDbLine
10
-4.9303806576313238e-31
20
-253
30
0
11
0
21
-259.5
31
0
0
LWPOLYLINE
5
103
100
AcDbEntity
8
0
100
AcDbPolyline
90
12
70
1
43
0.0
10
61.480038763747231
20
-213.85551459609553
10
56.480038987264656
20
-213.85551459609553
10
56.480038689241432
20
-198.85551437257814
10
61.480038763747231
20
-198.85551437257814
10
61.480038763747231
20
-203.85551444708395
10
71.480038912758815
20
-203.85551444708395
10
71.480038912758815
20
-198.85551437257814
10
76.480038987264606
20
-198.85551437257814
10
76.480038987264606
20
-213.85551459609553
10
71.480038912758815
20
-213.85551459609553
10
71.480038912758815
20
-208.85551452158973
10
61.480038763747231
20
-208.85551452158973
0
LINE
5
104
100
AcDbEntity
8
0
100
AcDbLine
10
40
20
-211.17000000000004
30
0
11
40
21
-207.00000000000003
31
0
0
LINE
5
105
100
AcDbEntity
8
0
100
AcDbLine
10
40
20
-207.00000000000003
30
0
11
40
21
-211.17000000000004
31
0
0
LINE
5
106
100
AcDbEntity
8
0
100
AcDbLine
10
23.999999999999993
20
-229.50000000000003
30
0
11
23.999999999999993
21
-228.00000000000006
31
0
0
LINE
5
107
100
AcDbEntity
8
0
100
AcDbLine
10
23.999999999999993
20
-229.50000000000003
30
0
11
53.000000000000007
21
-229.50000000000003
31
0
0
LINE
5
108
100
AcDbEntity
8
0
100
AcDbLine
10
40
20
-23.500000000000014
30
0
11
24.000000000000007
21
-23.500000000000014
31
0
0
LINE
5
109
100
AcDbEntity
8
0
100
AcDbLine
10
24.000000000000007
20
-23.500000000000014
30
0
11
24.000000000000007
21
-25.000000000000036
31
0
0
LINE
5
110
100
AcDbEntity
8
0
100
AcDbLine
10
40
20
-23.500000000000014
30
0
11
53.000000000000007
21
-23.500000000000014
31
0
0
LINE
5
111
100
AcDbEntity
8
0
100
AcDbLine
10
53.000000000000007
20
-23.500000000000014
30
0
11
53.000000000000007
21
-25.000000000000036
31
0
0
LINE
5
112
100
AcDbEntity
8
0
100
AcDbLine
10
53.000000000000007
20
-25.000000000000036
30
0
11
53.000000000000007
21
-99.000000000000028
31
0
0
LINE
5
113
100
AcDbEntity
8
0
100
AcDbLine
10
53.000000000000007
20
-154.00000000000003
30
0
11
53.000000000000007
21
-229.50000000000003
31
0
0
LINE
5
114
100
AcDbEntity
8
0
100
AcDbLine
10
55
20
-126.50000000000003
30
0
11
55
21
-99.000000000000028
31
0
0
LINE
5
115
100
AcDbEntity
8
0
100
AcDbLine
10
55
20
-126.50000000000003
30
0
11
55
21
-154.00000000000003
31
0
0
LINE
5
116
100
AcDbEntity
8
0
100
AcDbLine
10
55
20
-154.00000000000003
30
0
11
53.000000000000007
21
-154.00000000000003
31
0
0
LINE
5
117
100
AcDbEntity
8
0
100
AcDbLine
10
55
20
-99.000000000000028
30
0
11
53.000000000000007
21
-99.000000000000028
31
0
0
LINE
5
118
100
AcDbEntity
8
0
100
AcDbLine
10
24.000000000000004
20
-99.000000000000028
30
0
11
-1.9292793877687791e-31
21
-99.000000000000028
31
0
0
LINE
5
119
100
AcDbEntity
8
0
100
AcDbLine
10
24
20
-154.00000000000003
30
0
11
-3.0011012698625451e-31
21
-154.00000000000003
31
0
0
LINE
5
120
100
AcDbEntity
8
0
100
AcDbLine
10
24.000000000000007
20
-25.000000000000036
30
0
11
24.000000000000004
21
-99.000000000000028
31
0
0
LINE
5
121
100
AcDbEntity
8
0
100
AcDbLine
10
24
20
-154.00000000000003
30
0
11
23.999999999999993
21
-228.00000000000006
31
0
0
LWPOLYLINE
5
122
100
AcDbEntity
8
0
100
AcDbPolyline
90
12
70
1
43
0.0
10
61.41723823076039
20
-216.51979726158459
10
61.41723823076039
20
-221.51979733609039
10
71.417238379771888
20
-221.51979733609036
10
71.417238379771888
20
-216.51979726158459
10
76.417238156254427
20
-216.51979726158459
10
76.417238454277651
20
-231.51979748510183
10
71.417238379771902
20
-231.51979748510183
10
71.417238379771902
20
-226.51979741059608
10
61.417238230760404
20
-226.51979741059608
10
61.417238230760404
20
-231.51979748510183
10
56.417238156254648
20
-231.51979748510183
10
56.417238156254626
20
-216.51979726158459
0
LWPOLYLINE
5
123
100
AcDbEntity
8
0
100
AcDbPolyline
90
12
70
1
43
0.0
10
61.223029468526803
20
-239.31487309358459
10
71.223029617538344
20
-239.31487309358459
10
71.22302961753833
20
-234.31487301907879
10
76.223029394020884
20
-234.31487301907879
10
76.223029692044108
20
-249.31487324259609
10
71.223029617538344
20
-249.31487324259609
10
71.223029617538344
20
-244.31487316809034
10
61.223029468526803
20
-244.31487316809034
10
61.223029468526803
20
-249.31487324259609
10
56.22302939402104
20
-249.31487324259609
10
56.22302939402104
20
-234.31487301907879
10
61.223029468526803
20
-234.31487301907879
0
CIRCLE
5
124
100
AcDbEntity
8
0
100
AcDbCircle
10
40
20
-207.00000000000003
30
0
40
5
0
CIRCLE
5
125
100
AcDbEntity
8
0
100
AcDbCircle
10
40
20
-126.50000000000003
30
0
40
5.0000000000000036
0
CIRCLE
5
126
100
AcDbEntity
8
0
100
AcDbCircle
10
40
20
-46.000000000000014
30
0
40
5.0000000000000009
0
ENDSEC
0
SECTION
2
OBJECTS
0
DICTIONARY
5
C
100
AcDbDictionary
3
ACAD_GROUP
350
D
3
ACAD_MLINESTYLE
350
17
0
DICTIONARY
5
D
100
AcDbDictionary
0
DICTIONARY
5
1A
330
C
100
AcDbDictionary
0
DICTIONARY
5
17
100
AcDbDictionary
0
ENDSEC
0
EOF
